Alternatyvus, ekonomiškas grojimas

Mediatorius - tai toks brauktukas, kuriuo grojama gitara. Jį galite nusipirkti muzikos parduotuvėse, jis kainuoja 1lt.
Egzistuoja du grojimo mediatoriumi būdai:
1. Alternatyvus grojimas
2. Ekonomiškas grojimas
Ne tik akordus galima groti ir iš viršaus, ir iš apačios, taip pat yra ir su grojimu mediatoriumi. Stygą galima užgauti tiek iš viršaus, tiek iš apačios. Pažymėkime, kad
V - stygos užgavimas iš viršaus
^ - stygos užgavimas iš apačios

Alternatyvus grojimas
Alternatyvaus grojimo esmė - stygos užgaunamos vieną kartą iš viršaus, kitą kartą iš apačios ir t.t. (V^V^V^V^V^V^V^V^...) Po tabulatūra parašyta kaip reikia užgauti stygą.

e|---------------------------1-2-3---
B|-----------------------1-2---------
G|-----------------1-2-3-------------
D|-------------2-3-------------------
A|-------1-2-3-----------------------
E|-1-2-3-----------------------------
V ^ V ^ V ^ V ^ V ^ V ^ V ^ V ^

Ekonomiškas grojimas
Ekonomiško grojimo esmė - daryti kuo mažiau judesio. Taigi jis skirsis nuo alternatyvaus grojimo tuo, kad pereinant iš vienos stygos į kitą stygos užgaunamos vienodai. Paanalizuokite pvz

e|---------------------------1-2-3-3-2-1--------------------------
B|-----------------------1-2-------------2-1----------------------
G|-----------------1-2-3---------------------3-2-1----------------
D|-------------2-3---------------------------------3-2------------
A|-------1-2-3-----------------------------------------3-2-1------
E|-1-2-3-----------------------------------------------------3-2-1
V ^ V V ^ V V ^ V ^ V V ^ V ^ V ^ V ^ ^ V ^ V ^ ^ V ^ V ^ ^ V ^

Atkreipkite dėmesį kaip užgaunamos stygos per perėjimą nuo vienos stygos prie kitos. Kadangi storiausią E stygą užgauname V ^ V, o paskutinis užgavimas V , tai ekonomiškiausias būdas yra užkabinti stygą A taip pat iš viršaus. Tačiau šis būdas nėra naudojamas(arba labai retai). Jis vartojamas tik arpegiuose, arba kai stygos užgaunamos viena po kitos iš eilės ir staigiai. Pvz:

e|---------0---------
B|-------1---1-------
G|-----2-------2-----
D|---2-----------2---
A|-0---------------0-
E|-------------------
V V V V ^ ^ ^ ^ ^

Taigi kai grojate mediatoriumi , naudokite alternatyvų grojimą, nebent grojate arpegiu ar užgaunate kelias stygas iš eilės ir kitaip to sugrot neimanoma. Tačiau žinokite, kad egzistuoja toks ekonomiškas grojimas.

Pratimai
Kadangi visada naudosite alternatyvų grojimą, štai pora pratimėlių, juos reikės išmokti grot super greitai(atkreipkite dėmesį kaip užgaunamos stygos: viršaus ar apačios):

Pratimas 1
e|-----------------------------------
B|-----------------------------------
G|-----------------------------------
D|---------------------3-5-5-3-------
A|-----3-5-5-3-----3-5---------5-3---
E|-3-6---------6-3-------------------
V ^ V ^ V ^ V ^ V ^ V ^ V ^ V ^
Pratimas 2
e|-------------------------
B|-------------------------
G|---------3---------------
D|-----3-5---5-3-----------
A|-3-5-----------5---------
E|-------------------------
V ^ V ^ V ^ V ^
Pratimas 3
e|-------------------------------------------------
B|-------------------------------------------------
G|-------------------------------------------------
D|-----------------------------3-----3-----5-----5-
A|-----3-----3-----5-----5-3-5---3-5---3-5---3-5---
E|-3-6---3-6---3-6---3-6---------------------------
V ^ V ^ V ^ V ^ V ^ V ^ V ^ V ^ V ^ V ^ V ^ V ^

Sugroję pratimą grokite jį vėl iš naujo ir taip daug kartų. Šiuos pratimus išmokite groti taip greitai kaip tik galite ir su kiekviena diena didinkit tempą.

2010-06-22